Artists by letter:1-9ABCDEFGHIJKLMNOPRSTUVWXYZ

Vocaloid - Black rock shooter

Rate this song:
Intro

E -3-8-7-3--------------------------3-5-3-5-3-2---------------------|
B -1-6-6-0------------------------3---------3-3-----------3---------|
G --------------------------------------------------0-2-4-----------|
D -----------2h3p2-0------------------0---0-------------------------|
A -3-8-8-2-----------3-3------------3---3---------------------------|
E ---------3----------------------3---------------------------------|

E ------------------0-1--3~-3~-3~-----------------------------------|
B -1~-1~-1~-----1-3-------------------------------------------------|
G ------------------------------------------------------------------|
D ------------------------------------------------------------------|
A -----------------------3--2--0-----3p2p0-3p2p0--------------------|
E -3--3--3------3---------------------------------2-----------------|

Verse

E ------------------------------------------------------------------|
B ------------------------------------------------------------------|
G -/4-4-2-4-2-0-----0-0-----4-4~----------4-4-2-4-2-0-----0-0-------|
D -------------4-4-----4-----------------------------4-4------------|
A ------------------------------------------------------------------|
E ------------------------------------------------------------------|

E ------------------------------------------------------------------|
B -5-3-3~----3-3-5-5-3-3-5------------------------------------------|
G -------------------------2-4-4------4-2-0---0-----4-4-0-0-0-0-4-4-|
D ------------------------------------------4-----------------------|
A ------------------------------------------------------------------|
E ------------------------------------------------------------------|

E ------------------------------------------------------------------|
B -3-2-2-0------------------0-0-------------------------------------|
G ---------3-3s4----------------2-0-----0-2-4-----------------------|
D ----------------------------------4-4-------4---------------------|
A ------------------------------------------------------------------|
E -----------------------0--(or 0s7-7-5-3-2-2-3-5-7-2)--------------|

Then chorus

E ------------------------------------------------------------------|
B ---------------------3-1--0-0-0-00----------------------3-1-------|
G ------4-4-4-4----2-0------4-4-4-44s2------------4-4-4-4-----3s4---|
D -2-2----------------------4-4-4-44s2--------2---------------------|
A -----------------------------------2------2-----------------------|
E ------------------------------------------------------------------|

E -------------------------------------------------7h8p7p5p3-3~-----|
B ----------------3-0-----------------3s8s7s3-----------------------|
G -2p0--2-0-0-0-0----------2s4s5------2s7-7s2--2--------------------|
D ------------------------------------------------------------------|
A ------------------------------------------------------------------|
E ------------------------------------------------------------------|

E -------------------------7-8-7s5-3~-------------------------------|
B -3-3--8-8--3-3--10-10s3--8-8-8s7-3~-------3---3s8s7s3-------------|
G -2-2--7-7--4-4--11-11---------------0-2-4-----2s7-7s2--2----------|
D ------------------------------------------------------------------|
A ------------------------------------------------------------------|
E ------------------------------------------------------------------|

E -7h8p7p5p3-3-----2s5-5-5-5-5-3-3-3-3-3-5----------5-5-5-5-5-3-3-3-|
B ------------------------------------------------------------------|
G ------------------------------------------------2-----------------|
D -------------0h2-----------------------0--0h2h4-------------------|
A ------------------------------------------------------------------|
E ------------------------------------------------------------------|




E -3-3-5~---------------3~------------------------------------------|
B ----------------------3~------------------------------------------|
G ----------------------0~------------------------------------------|
D ----------------------0~------------------------------------------|
A -----0-----0-3-2-0----2~------------------------------------------|
E ----------------------3~------------------------------------------|

  • 0