Artists by letter:1-9ABCDEFGHIJKLMNOPRSTUVWXYZ

Lord huron - Ends of the earth

Rate this song:

intro/verse
e|------------------------------------------------------------------------------|
B|------------------------------------------------------------------------------|
G|------------------------------------------------------------------------------|
D|------2------2----------------------------------------------------------------|
A|----2-------2-----------------------------------------------------------------|
E|--0-------0-------------------------------------------------------------------|
CHorus
e|----0------------2---------- 3-----0------------------------------------------|
B|----0------------2---------- 3-----0------------------------------------------|
G|----1------------3---------- 4-----1------------------------------------------|
D|----2------------4---------- 5-----2------------------------------------------|
A|----2------------4---------- 5-----2------------------------------------------|
E|----0------------2-----------3-----0------------------------------------------|
to the ends of the earth will you follow me
  • 0